Gece - Gamsız (Tab)
Zorluk: Kolay / Version: 1 İçerik: Akor
Tranpose
E|------------------------------------------------------------------------------|
B|-------19-18-15-18-17-14-17-15------------------------------------------------|
G|-16-16------------------------------------------------------------------------|
D|------------------------------------------------------------------------------|
A|------------------------------------------------------------------------------|
E|------------------------------------------------------------------------------|

E|------------------------------------------------------------------------------|
B|-------19-18-15-18-17-14-17-15-----------------------------------------------|
G|-16-16------------------------------------------------------------------------|
D|------------------------------------------------------------------------------|
A|------------------------------------------------------------------------------|
E|------------------------------------------------------------------------------|

E|-------19---------------------------------------------------------------------|
B|-19-19----22--24-24-24-24-19---18/19--18/19--18/19--18/19/18/15---18-15-12----|
G|------------------------------------------------------------------------------|
D|------------------------------------------------------------------------------|
A|------------------------------------------------------------------------------|
E|------------------------------------------------------------------------------|