Kolpa - Kadınım
Zorluk: Kolay / Version: 1 İçerik: Akor
Tranpose
B|-----------------------------------------------------------
G|------------------9-11------------------12-11-9------------
D|-9-9-9--9-9-9--12---------9-9-9--9-9-9---------------------
A|-----------------------------------------------------------
 
B|-----------------------------------------------------------
G|---------9-11^---9-11-12-11^--9-11-9^-7-9-7^---------------
D|-9-11-12---------------------------------------------------
A|-----------------------------------------------------------
 
B|-----------------------------------------------------------
G|-6-7-6^-4-6-4--6-7-9-6^-4-6-4^-------4-6-4-2-4-2---2-------
D|-------------------------------------------------5---5-4^--
A|-----------------------------------------------------------
 
Bm
Sana dargınım,
     Em               Bm G                F#m
Kırgınım, sana kızgınım..Haksızlık vefasızlık bu
G                   F#m
Bu her şeyi inkar eden duygu
 
Ne acı, yazık !
 
Bm               A
Kadınım, söyle sen mutlu oldun mu ?
G                F#m
Bu deli adamı unuttun mu ?
Bm                A
Sevdin mi gerçekten ah seviştin mi ?
G                F#m
Söyle onları da öptün mü ?
 
Bm                      Em             Bm
Hiç üzülmedin mi, düşünmedin mi ? Halimi
G              F#m           G              F#m
Hiç mi sızlamadı için bir tek iz bile yok mu benden ?