Mor ve Ötesi - Sevda Çiçeği ( Tab)
Zorluk: Kolay / Version: 1 İçerik: Akor
Tranpose
E||---------------------|--------------------|
B||---------------------|--------------------|
G||---------------------|--------------------|
D||---------------------|--------------------|
A||---------------------|--------------------|
E||-12-0-0-12-0-12-10-9-|-10-0-0-10-0-10-9-7-|

-----------------|-----------------|
-----------------|-----------------|
-----------------|-----------------|
-----------------|-----------------|
-----------------|-----------------|
-9-0-0-9-0-9-7-6-|-7-0-0-7-0-0-7-6-|

-----------------|-----------------|
-----------------|-----------------|
-----------------|-----------------|
-----------------|-----------------|
-----------------|-----------------|
-7-0-0-7-0-7-6-3-|-6-0-0-6-0-6-3-2-|

-----------------|----||---------------------|
-----------------|----||---------------------|
-----------------|----||*--------------------|
-------8-9-8-5-4-|-2~-||*--------------------|
-----------------|----||---------------------|
-3-0-0-6-7-6-3-2-|-0~-||-12-0-0-12-0-12-10-9-|

--------------------|-----------------|
--------------------|-----------------|
--------------------|-----------------|
--------------------|-----------------|
--------------------|-----------------|
-10-0-0-10-0-10-9-7-|-9-0-0-9-0-9-7-6-|

------------------|-----------------|-----------------|
------------------|-----------------|-----------------|
------------------|-----------------|-----------------|
------------------|-----------------|-----------------|
------------------|-----------------|-----------------|
-7-0-0-3-----6----|-7-0-0-7-0-7-6-3-|-6-0-0-6-0-6-3-2-|

-----------------|--------------------||
-----------------|--------------------||
-----------------|-------------------*||
-------8-9-8-5-4-|-2~----------------*||
-----------------|--------------------||
-3-0-0-6-7-6-3-2-|-0~-----------------||